Ария — Мания величия, аккорды

Intro: (0:01 - 0:26) Church Organ.

(0:26 - 0:50)
Verse 1: x2 
Choir1
E|-10------------------------------|-------------------------------------|
B|-------10---------------------8--|-10-------10-----------------------8-|
G|----------7----------7--9--10----|-------9------------------7--9--10---|
D|---------------------------------|-------------------------------------|
A|---------------------------------|-------------------------------------|
E|---------------------------------|-------------------------------------|

Bass + choir2:
G-------------------------------------|
D-------------------------------------|
A-----5--7--8--5-----------4--5--7----|
E-----------------------------------5-|
 
Choir1:
E|----------------------------------------------------------------------|
B|-10----8--------8--10----8--------------------------------------------|
G|----------10---------------------9--10------7--------10----9--7-----7-|
D|----------------10-----------------------10---------------------------|
A|----------------------------------------------------------------------|
E|----------------------------------------------------------------------|

Bass + choir2:
G|-------------------------------------------------|
D|-------------------------------------------------|
A|----------------------5--------8-----7--5-----5--|
E|-6------8-----------5----------------------8-----|

(1:12 - 1:36)
Chorus: x2 
Choir1
E|-10--------------------------|-----------------------------|
B|-------10-----------------8--|-10-------10---------------8-|
G|----------7------7--9--10----|-------9----------7--9--10---|
D|-----------------------------|-----------------------------|
A|-----------------------------|-----------------------------|
E|-----------------------------|-----------------------------|

Gtr:
E|-----------------------------------------|
B|-----------------------------------------|
G|-----------------------------------------|
D|-7---------------------------------------|
A|-5-------------------------------------7-|
E|---------------------------------------5-|
 
Choir1:
E----------------------------------------------------------------------|
B|-10----8--------8--10----8-------------------------------------------|
G|----------10--------------------9--10------7--------10----9--7-----7-|
D-----------------10------------------------------10-------------------|
A----------------------------------------------------------------------|
E----------------------------------------------------------------------|

Gtr:
E---------------------------------------------|
B---------------------------------------------|
G---------------------------------------------|
D|-------------------------------------7------|
A|--8----------------------10----------7----5-|
E|--6----------------------8-----------5------|